Spaghetti theme tabs and chords


(Cat Stevens) #1

Hi guys…I’m interested in either making a potential affiliate to the site, or in helping Sebastian set up a subsection of the site devoted to tablature and chords for spaghetti themes. I wanted to post here to see if you all would be interested in such an endeavor, and if you had anything to contribute.

I didn’t want to post empty-handed though, so what follows is my attempt at figuring out the songs from the first two (only official?) Ringo movies. Hopefully this will be formatted correctly:

A Pistol For Ringo

Picking pattern for maj7 chords (shown here for the Gmaj7):

e|------------------------|
B|-------12-------12------|
G|-----11--11--------11---|
D|------------------------|
A|--10---------10---------|
E|------------------------|


Gmaj7                         Fmaj7
Countries, that know only the springtime

         Gmaj7                               Cmaj7
And your green fields, with your scentin' of hay

     Bm              G            C
Know Ringo, with his angel face

      G              D               G
And a woman, who was waitin' for his return

          Bm
Cross the canyons he laughed

         Em         Bm
Down the valley the death

       D             G        A7
And he left behind a river of blood

        Bm
For his life was guided

     Em     Bm
By a crude law

G             A7          D
He only had a mind to get gold

Gmaj7                       Fmaj7
Rivers, you know how is the history

        Gmaj7                     Cmaj7
And his laughin' was a presage of death

Bm            G           C
Ringo, had an angel face

        G          D
But whenever Ringo laughed,

      G          C
Ringo fired


SOLO:

e|-----------------------------------------------0-------------------|
B|-0-0----0-1-0-----------------0-----0-1-0--------------------------|
G|---------------2-0-2-2----0-2-------------2-0----------------------|
D|--------------------------------0----------------------------------|
A|-------------------------------------------------------------------|
E|-------------------------------------------------------------------|

Bm           G          C
Ringo had an angel face

        G          D
But whenever Ringo laughed,

      G        C      G
Ringo fired

There are a few chords in this one that I’m not sure about…namely the B7 and the last G chord in the bridge. I welcome suggestions / corrections!

RETURN OF RINGO

Em                                   D      Bm
I kiss at last the beloved ground on my land

Em                                       D          Bm
That I left one day with my heart, heart full of pain

G                          Em        Bm
I have looked in the faces of my old friends

G                            Em     Bm
But now do you look at me as my old friend

Em                                   D      Bm
And now what happens you must, you must tell me

Em       D              E
You must remember who I am.



G      Em             C                 G      Em
If you see a man with downcast eyes and ragged clothes

G       Em                   C                  G         B7                  
Walking through your village don't shut him but go at his side

G        Em      Bm            G          Bm           A
I'm that man and now I beg you help me, I need you...I need you.



Em                                D   Bm
The liar who told my sweetheart i was dead

Em                                      D    Bm
To take my place, he shall pay for this base lie

G                     Em       Bm
Those who saw me as a run-down man

G                     Em           Bm
Those who tried to destroy all our world

Em                              D    Bm
Shall leave forever our beloved land

Em         G            A
Because we are fearless men

Em          G           A
Because we are fearless men

Em         G            E
Because we are fearless men

Thanks to user Bill San Antonio for the lyrics in another thread! Up next from me: Vamos a Matar Companeros (for the impatient: Em-G-C-D-Em-C-Bm).

Anyone else have any they’ve figured out?


(The Dead Ranch Hands) #2

I have quite a few Morricone tabs, I’ll post when I get a chance


(The Dead Ranch Hands) #3
A Fistful of Dollars
(not totally organized, but the melodic ideas are here)

e|------0-1-3-1-0---------|---|---|------0-1-3-1-0---0-1-3-5-------------|
b|----3-----------3-1---1-|-3-|---|----3-----------3---------------------|
G|--2-----------------2---|---|-2-|--2-----------------------------------|
D|------------------------|---|---|--------------------------------------|
A|------------------------|---|---|--------------------------------------|
E|------------------------|---|---|--------------------------------------|

e|--8------------10--------------3----0-1-----------------------------|
b|----10-10---------10-10------3----3------3-1-3----------------------|
G|----------10------------10------------------------------------------|
D|--------------------------------------------------------------------|
A|--------------------------------------------------------------------|
E|--------------------------------------------------------------------|

1st Guitar Solo
(clean electric)

e|----------------------------0--1--0---------------------------------|
b|----3-1-3------3-1-3-----3-----------3--1-----1--3-1-3---1----------|
G|-2----------2---------2--------------------2----------------2-------|
D|--------------------------------------------------------------------|
A|--------------------------------------------------------------------|
E|--------------------------------------------------------------------|

e|-------------------------1--3--5--3--1--0-----0--1-0-1--1--0--------|
b|----3-1-3------3-1-3--1--------------------1-----------------3--1--3|
G|-2----------2-------------------------------------------------------|
D|--------------------------------------------------------------------|
A|--------------------------------------------------------------------|
E|--------------------------------------------------------------------|

e|-3-----1-----------------|
b|---------------3--1--3---|
G|-------------------------|
D|-------------------------|
A|-------------------------|
E|-------------------------|

2nd Guitar Solo
(clean electric)


e|----------0--1--3--1--0--------------------------|
b|----3--------------------3--1-------1--3---------|
G|-2-------------------------------2---------------|
D|-------------------------------------------------|
A|-------------------------------------------------|
E|-------------------------------------------------|
|__________________Rythm Figure 1__________________|

e|----------0--1--3--1--0--------------------------|
b|----3--------------------3--1-------1------------|
G|-2-------------------------------2-----2---------|
D|-------------------------------------------------|
A|-------------------------------------------------|
E|-------------------------------------------------|
|______Rythm Figure 1________|____Rythm Figure 2___|

e|----------0--1--3--1--0-----0----1--3--5---------|
b|----3--------------------3-----------------------|
G|-2-----------------------------------------------|
D|-------------------------------------------------|
A|-------------------------------------------------|
E|-------------------------------------------------|
|__________________Rythm Figure 1__________________|

e|--8------------10--------------3----0-1-----------------------------|
b|----10-10---------10-10------3----3------3-1-3----------------------|
G|----------10------------10------------------------------------------|
D|--------------------------------------------------------------------|
A|--------------------------------------------------------------------|
E|--------------------------------------------------------------------|











e|-------------------------|---|---------------------------------------|
b|-------------------------|---|---------------------------------------|
G|---------0--------------*|---|----------0-----------0-2--------------|
D|---0-2-3---3-2-0-------0*|---|----0-2-3---3-2-0-2-3------------------|
A|-0---------------3-0-3---|-0-|--0------------------------------------|
E|-------------------------|---|---------------------------------------|


e|--------------------------------------------------------------------|
b|-1---------3--------------------------------------------------------|
G|---2-2-------2-2-------0--------------------------------------------|
D|-------3---------3---0----0-2-3---0---0-----------------------------|
A|------------------------------------3-------------------------------|
E|--------------------------------------------------------------------|


e|-------------------------|------------------------------------------|
b|-------------------------|------------------------------------------|
G|---------0--------------*|------------2-0---0-2--3-2-0--------------|
D|---0-2-3---3-2-0-------0*|---------3------3------------3-3--5-------|
A|-0---------------3-0-3---|-0---0-3-----------------------------5-3-5|
E|-------------------------|------------------------------------------|

e|----------------------------0--1--0---------------------------------|
b|----3-1-3------3-1-3-----3-----------3--1-----1--3-1-3---1----------|
G|-2----------2---------2--------------------2----------------2-------|
D|--------------------------------------------------------------------|
A|--------------------------------------------------------------------|
E|--------------------------------------------------------------------|

e|-------------------------1--3--5--3--1--0-----0--1-0-1--1--0--------|
b|----3-1-3------3-1-3--1--------------------1-----------------3--1--3|
G|-2----------2-------------------------------------------------------|
D|--------------------------------------------------------------------|
A|--------------------------------------------------------------------|
E|--------------------------------------------------------------------|

e|-3-----1-----------------|
b|---------------3--1--3---|
G|-------------------------|
D|-------------------------|
A|-------------------------|
E|-------------------------|
The Good, The Bad and The Ugly

e----10----10-------------------10----10------------8-
b-10----10----10---6--8------10----10----10---6--8----
g------------------------7----------------------------
d-----------------------------------------------------
a-----------------------------------------------------
e-----------------------------------------------------

e----10----10-10---/13-12-10---------10----10-------------
b-10----10-------------------13---10----10----10---/8-----
g-----------------------------------------------------7-7-
d---------------------------------------------------------
a---------------------------------------------------------
e---------------------------------------------------------

E||-------------------------------------------------------------
B||----3---3-------------3---3--------1-----3---3-3-------------
G||--2---2---2----0----2---2---2----0-----2---2-----------------
D||-------------3---0-------------3------------------3--2-0-----
A||---------------------------------------------------------3---
E||-------------------------------------------------------------

E||----------------------------
B||----3---3-------------------
G||--2---2---2---0------------
D||----------------0-0--------
A||----------------------------
E||---------------------------


         x2
e-----------|--------------0----3---5-
b---------1-|---------1-------1-------
g-----2-----|-----2------2------------
d---0---3---|---0---3-----------------
a-0---------|-0-----------------------
e-----------|-------------------------

            x2
e-1p0----3----|-1p0---3---1p0---3---
b-----3-----3-|-----3---3-----3---3-
g-------------|---------------------
d-------------|---------------------
a-------------|---------------------
e-------------|---------------------

e-1p0---0---------------------------------
b-----3---1-3p1p0-1-----------------------
g-------------------2-4p2p0-2---0---------
d-----------------------------3---3p2-3-0-
a-----------------------------------------
e-----------------------------------------

e---------------------------
b---------------------------
g---------------------------
d-6------------7------------
a-6------------7------------
e-4------------5------------


   The Vice Of Killing                                


E||-----------------------|-----------------------|-----------------------|
B||-----------------------|-----------------------|-----------------------|
G||------------1----------|-----------------------|------------1----------|
D||--3------4-----4--3----|--1------3--1----------|--3------4-----4--3----|
A||-----------------------|---------------4--1----|-----------------------|
E||-----------------------|-----------------------|-----------------------|


-----------------------|----------------------|--------------------|
-----------------------|----------------------|--------------------|
------------------3----|------------1----2----|--3-----------------|
--1------3--1--4-------|----------------------|--------------------|
-----------------------|----------------------|--------------------|
-----------------------|----------------------|--------------------|


--------------------|---------------------------|--------------------|
--------------------|---------------------------|--------------------|
--------------------|---------------------------|--------------------|
-----------8--------|--6-8-6-4------------------|-----------8--------|
--6-----------------|----------6----4----4------|--6-----------------|
--------------------|-----------------6---------|--------------------|


---------------------------|----------------------------|
---------------------------|----------------------------|
---------------------------|--10------11--13--11--10----|
--6-8-6-4------------------|----------------------------|
----------6----4-6---------|----------------------------|
---------------------------|----------------------------|


------------------------|----------------------------|-------------------------|
------------------------|----------------------------|----------------7--11----|
--8------10--8--6-------|--10------11--13--11--10----|--8------10--8-----------|
-------------------8----|----------------------------|-------------------------|
------------------------|----------------------------|-------------------------|
------------------------|----------------------------|-------------------------|


-----------------------|-----------6--------|--4-6-4-2------------------|
------------9----11----|--------------------|----------4----2-----------|
-----------------------|--8-----------------|-----------------3---------|
-----------------------|--------------------|---------------------------|
-----------------------|--------------------|---------------------------|
-----------------------|--------------------|---------------------------|


-----------6--------|--4-6-4-2------------------|----||
--4-----------------|----------4----2-4---------|----||
--------------------|---------------------------|----||
--------------------|---------------------------|----||
--------------------|---------------------------|----||
--------------------|---------------------------|----||

(Cat Stevens) #4

Thanks for reviving this thread! Here’s the intro to Ehi Amico, C’è Sabata, Hai Chiuso:

[code]Violin glissando
e|-------|
B|-1~8-8-|
G|-------|
D|-------|
A|-------|
E|-------|

Rhythm riff

e|------------------------------------------------------------------------|
B|------------------------------------------------------------------------|
G|-----0—0--------------------------------------------------------------|
D|—1---1----------------------------------------------------------------|
A|-3----------------------------------------------------------------------|
E|------------------------------------------------------------------------|

Lead guitar

e|-3-3-3-1-3--------------------------------------------------------------|
B|------------4-4-4-3-4–1-1-1—1----------------------------------------|
G|-----------------------------3—0--------3—0---------3—0-----------|
D|------------------------------------3-3-3—3-----3-3-3—3-------------|
A|------------------------------------------------------------------------|
E|------------------------------------------------------------------------|

Lead trumpet

e|-3-3-3-1-3--------------------------------------------------------------|
B|-----------4-4-4-3-4–1-1-1—1----------------------------4-4-3-3-1----|
G|----------------------------3—0--------3—0---0-0-0-3-0--------------|
D|-----------------------------------3-3-3—3----------------------------|
A|------------------------------------------------------------------------|
E|------------------------------------------------------------------------|[/code]


(The Dead Ranch Hands) #5

Hey, thanks for that!

I recently tabbed some guitar, bass and trumpet parts from Preparati La Bara! I’ll try to post them soon.


(The Dead Ranch Hands) #6

Here is a melody from Preparati La Bara that gets used a lot, in pieces like David e Django, You’d Better Smile, Django Nella Trapolla, etc


E||-------|-------|-------|-------|-------|-------|-------|
B||-------|-------|-------|-------|-------|-------|-------|
G||-------|-------|-------|-------|-------|-------|-------|
D||-------|-------|-------|-------|-------|-------|-------|
A||-------|-------|-------|-------|-------|-------|-------|
E||-------|-------|-------|-------|-------|-------|-------|


  H.           Q        H        H           Q    Q    Q    Q     
---------------------|--------------------|----------------------|
---------------------|--------------------|----------------------|
---------------------|--------------------|-----------------2----|
---------------------|--------------------|------------2---------|
---------------7\----|--0-----------------|-------3--------------|
---------------------|--------------------|----------------------|


  Q    E  Q.     Q       Q    Q    Q    Q       E  Q    S S H         
----------------------|----------------------|-----------------------|
----------------------|----------------------|-----------------------|
--4----0--------------|------------0----4----|--2--------------------|
----------2-----------|----------------------|-----3-----------------|
----------------------|-------3--------------|----------3-0-3--------|
----------------------|----------------------|-----------------------|


  H        H           H        H           H        Q    Q      
--------------------|--------------------|----------------------|
--------------------|--------------------|----------------------|
--------------------|--------------------|----------------------|
-----------3--------|--2--------2--------|--2-------------------|
--------------------|--------------------|----------------7\----|
--------------------|--------------------|----------------------|


  H        H           Q    Q    Q    Q       Q    E  Q.     Q     
--------------------|----------------------|----------------------|
--------------------|----------------------|----------------------|
--------------------|-----------------2----|--4----0--------------|
--------------------|------------2---------|----------2-----------|
--0-----------------|-------3--------------|----------------------|
--------------------|----------------------|----------------------|


  Q    Q    Q    Q       E  Q    S S H           H        H         
----------------------|-----------------------|--------------------|
----------------------|-----------------------|--------------------|
------------0----4----|--2--------------------|--------------------|
----------------------|-----3-----------------|-----------3--------|
-------3--------------|----------3-0-3--------|--------------------|
----------------------|-----------------------|--------------------|


  H        H           H        Q.     S S    H.           Q     
--------------------|----------------------|--------------------|
--------------------|----------------------|--------------------|
--------------------|----------------------|--------------------|
--2-----------------|-----------0------2-0-|--------------------|
--------------------|----------------------|--3------------2----|
--------------------|----------------------|--------------------|


  Q.     Q    E  E  S S    Q.     Q    E  E  S S    Q.     Q    E  E  S S  
------------------------|------------------------|------------------------|
------------------------|------------------------|------------------------|
------------------------|------------------------|------------------------|
-----------------2--2-2-|------------------------|------------------------|
--0------L----0---------|--0------L----0---------|--3------L----3---------|
------------------------|-----------------3--3-3-|-----------------3--3-3-|


  Q.     Q    E  E  S S    Q.     Q    E  E  S S    Q.     Q    E  E  S S  
------------------------|------------------------|------------------------|
------------------------|------------------------|------------------------|
------------------------|------------------------|------------------------|
------------------------|------------------------|--0------L----0--0--0-0-|
--3------L----3--2--2-2-|--0------L----0--0--0-0-|------------------------|
------------------------|------------------------|------------------------|


  Q.     Q    E  E  S S    H        Q    Q        H        H         
------------------------|----------------------|--------------------|
------------------------|----------------------|--------------------|
------------------------|----------------------|--------------------|
--3------L----3--3--3-3-|--2-------------------|--------------------|
------------------------|----------------7\----|--0-----------------|
------------------------|----------------------|--------------------|


  Q    Q    Q    Q       Q    E  Q.     Q       Q    Q    Q    Q     
----------------------|----------------------|----------------------|
----------------------|----------------------|----------------------|
-----------------2----|--4----0--------------|------------0----4----|
------------2---------|----------2-----------|----------------------|
-------3--------------|----------------------|-------3--------------|
----------------------|----------------------|----------------------|


  E  Q    S S H           H        H           H        H         
-----------------------|--------------------|--------------------|
-----------------------|--------------------|--------------------|
--2--------------------|--------------------|--------------------|
-----3-----------------|-----------3--------|--2--------2--------|
----------3-0-3--------|--------------------|--------------------|
-----------------------|--------------------|--------------------|


  H        Q    Q        H        H           Q    Q    Q    Q     
----------------------|--------------------|----------------------|
----------------------|--------------------|----------------------|
----------------------|--------------------|-----------------2----|
--2-------------------|--------------------|------------2---------|
----------------7\----|--0-----------------|-------3--------------|
----------------------|--------------------|----------------------|


  Q    E  Q.     Q       Q    Q    Q    Q       E  Q    S S H         
----------------------|----------------------|-----------------------|
----------------------|----------------------|-----------------------|
--4----0--------------|------------0----4----|--2--------------------|
----------2-----------|----------------------|-----3-----------------|
----------------------|-------3--------------|----------3-0-3--------|
----------------------|----------------------|-----------------------|


  H        H           H        H           H        Q.     S S  
--------------------|--------------------|----------------------|
--------------------|--------------------|----------------------|
--------------------|--------------------|----------------------|
-----------3--------|--2-----------------|-----------0------2-0-|
--------------------|--------------------|----------------------|
--------------------|--------------------|----------------------|


  H.           Q       Q.     Q    E  E  S S    Q.     Q    E  E  S S  
--------------------|------------------------|------------------------|
--------------------|------------------------|------------------------|
--------------------|------------------------|------------------------|
--------------------|-----------------2--2-2-|------------------------|
--3------------2----|--0------L----0---------|--0------L----0---------|
--------------------|------------------------|-----------------3--3-3-|


  Q.     Q    E  E  S S    Q.     Q    E  E  S S    Q.     Q    E  E  S S  
------------------------|------------------------|------------------------|
------------------------|------------------------|------------------------|
------------------------|------------------------|------------------------|
------------------------|------------------------|------------------------|
--3------L----3---------|--3------L----3--2--2-2-|--0------L----0--0--0-0-|
-----------------3--3-3-|------------------------|------------------------|


  Q.     Q    E  E  S S    Q.     Q    E  E  S S    H        Q    Q      
------------------------|------------------------|----------------------|
------------------------|------------------------|----------------------|
------------------------|------------------------|----------------------|
--0------L----0--0--0-0-|--3------L----3--3--3-3-|--2-------------------|
------------------------|------------------------|----------------7\----|
------------------------|------------------------|----------------------|


  H        H           Q    Q    Q    Q       Q    E  Q.     Q     
--------------------|----------------------|----------------------|
--------------------|----------------------|----------------------|
--------------------|-----------------2----|--4----0--------------|
--------------------|------------2---------|----------2-----------|
--0-----------------|-------3--------------|----------------------|
--------------------|----------------------|----------------------|


  Q    Q    Q    Q       E  Q    S S H           H        H         
----------------------|-----------------------|--------------------|
----------------------|-----------------------|--------------------|
------------0----4----|--2--------------------|--------------------|
----------------------|-----3-----------------|-----------3--------|
-------3--------------|----------3-0-3--------|--------------------|
----------------------|-----------------------|--------------------|


  H        H           H        Q.     S S    H.           Q     
--------------------|----------------------|--------------------|
--------------------|----------------------|--------------------|
--------------------|----------------------|--------------------|
--2-----------------|-----------0------2-0-|--------------------|
--------------------|----------------------|--3------------2----|
--------------------|----------------------|--------------------|


  H.           Q       H.           Q       H.           Q     
--------------------|--------------------|--------------------|
--------------------|--------------------|--------------------|
--------------------|--------------------|--------------------|
--------------------|--------------------|--------------------|
--0-----------------|--0-----------------|--0-----------------|
---------------3----|---------------3----|---------------3----|


  H.           Q       H.           Q       H.           Q     
--------------------|--------------------|--------------------|
--------------------|--------------------|--------------------|
--------------------|--------------------|--------------------|
--------------------|--------------------|--------------------|
--0-----------------|--0-----------------|--0-----------------|
---------------3----|---------------3----|---------------3----|


  W                  
-------------------||
-------------------||
-------------------||
-------------------||
--0----------------||
-------------------||


(The Dead Ranch Hands) #7

And here’s Nel Cimitero di Tucson

E||-------|-------|-------|-------|-------|-------|-------|
B||-------|-------|-------|-------|-------|-------|-------|
G||-------|-------|-------|-------|-------|-------|-------|
D||-------|-------|-------|-------|-------|-------|-------|
A||-------|-------|-------|-------|-------|-------|-------|
E||-------|-------|-------|-------|-------|-------|-------|


  H        Q    Q       H        H           Q    Q    Q    Q     
---------------------|--------------------|----------------------|
----------------0----|--1-----------------|------------0----1----|
-----------2---------|--------------------|-------2--------------|
---------------------|-----------2--------|----------------------|
---------------------|--------------------|----------------------|
---------------------|--------------------|----------------------|


  Q.     E  H           Q    Q    Q    Q       H        H         
---------------------|----------------------|--------------------|
--0---------0--------|-----------------0----|--1-----------------|
---------2-----------|------------2---------|--------------------|
---------------------|-------2--------------|-----------3--------|
---------------------|----------------------|--------------------|
---------------------|----------------------|--------------------|


  Q    Q    Q    Q       W                   H        Q    Q     
----------------------|-------------------|---------------------|
------------0----1----|--0----------------|----------------0----|
-------2--------------|-------------------|-----------2---------|
----------------------|-------------------|---------------------|
----------------------|-------------------|---------------------|
----------------------|-------------------|---------------------|


  H        H           Q    Q    Q    Q       Q.     E  H         
--------------------|----------------------|---------------------|
--1-----------------|------------0----1----|--0---------0--------|
--------------------|-------2--------------|---------2-----------|
-----------2--------|--L-------------------|---------------------|
--------------------|----------------------|---------------------|
--------------------|----------------------|---------------------|


  Q    Q    Q    Q       H        H           Q    Q    Q    Q     
----------------------|--------------------|----------------------|
-----------------0----|--1-----------------|------------0----1----|
------------2---------|--------------------|-------2--------------|
----------------------|-----------3--------|----------------------|
----------------------|--------------------|----------------------|
----------------------|--------------------|----------------------|


  W                   Q    Q    Q    Q       H        H         
-------------------|----------------------|--0-----------------|
--0----------------|------------1----3----|--------------------|
-------------------|----------------------|-----------0--------|
-------------------|----------------------|--------------------|
-------------------|----------------------|--------------------|
-------------------|----------------------|--------------------|


  Q    Q    Q    Q       Q.     E  H           Q    Q    Q    Q     
-----------------0----|---------------------|----------------------|
-------1----3---------|--3------1--3--------|------------1----3----|
----------------------|---------------------|----------------------|
----------------------|---------------------|----------------------|
----------------------|---------------------|----------------------|
----------------------|---------------------|----------------------|


  H        Q    Q       H.           Q       W                 
--0-------------0----|--2------------2----|--4----------------|
---------------------|--------------------|-------------------|
-----------2---------|--------------------|-------------------|
---------------------|--------------------|-------------------|
---------------------|--------------------|-------------------|
---------------------|--------------------|-------------------|


  H        Q    Q       H        H           Q    Q    Q    Q     
---------------------|--------------------|----------------------|
----------------0----|--1-----------------|------------0----1----|
-----------2---------|--------------------|-------2--------------|
---------------------|-----------2--------|----------------------|
---------------------|--------------------|----------------------|
---------------------|--------------------|----------------------|


  Q.     E  H           Q    Q    Q    Q       H        H         
---------------------|----------------------|--------------------|
--0---------0--------|-----------------0----|--1-----------------|
---------2-----------|------------2---------|--------------------|
---------------------|-------2--------------|-----------3--------|
---------------------|----------------------|--------------------|
---------------------|----------------------|--------------------|


  Q    Q    Q    Q       Q.     E  H           H        Q    Q     
----------------------|---------------------|---------------------|
------------0----1----|--0---------0--------|----------------0----|
-------2--------------|---------2-----------|-----------2---------|
----------------------|---------------------|---------------------|
----------------------|---------------------|---------------------|
----------------------|---------------------|---------------------|


               |--3--|                                       |--3--|   
  H.           E  E  E     H        H           H.           E  E  E   
------------------------|--0-----------------|------------------------|
--1------------3--1--3--|-----------1--------|------------------------|
------------------------|--------------------|--0------------0-----2--|
------------------------|--------------------|------------------4-----|
------------------------|--------------------|------------------------|
------------------------|--------------------|------------------------|


                                                            |--3--|   
  Q    Q    Q    Q       H.           Q       H        Q    E  E  E   
----------------------|--------------------|-------------------------|
-----------------0----|--1------------1----|--0-------------------1--|
--0---------2---------|--------------------|-----------2----1--2-----|
----------------------|--------------------|-------------------------|
----------------------|--------------------|-------------------------|
----------------------|--------------------|-------------------------|


  Q.     E  H           H        Q    Q       H        H         
---------------------|---------------------|--------------------|
--0---------0--------|----------------0----|--1-----------------|
---------2-----------|-----------2---------|--------------------|
---------------------|---------------------|-----------2--------|
---------------------|---------------------|--------------------|
---------------------|---------------------|--------------------|


  Q    Q    Q    Q       Q.     E   H           H        Q    Q     
----------------------|----------------------|-----------3----1----|
------------0----1----|--0------0--/5--------|---------------------|
-------2--------------|----------------------|---------------------|
----------------------|----------------------|---------------------|
----------------------|----------------------|---------------------|
----------------------|----------------------|---------------------|


  H        Q    Q       H        H           W                                 
--0------------------|-----------0--------|-------------------|-------|-------|
-----------3----1----|--3-----------------|-------------------|-------|-------|
---------------------|--------------------|--2----------------|-------|-------|
---------------------|--------------------|-------------------|-------|-------|
---------------------|--------------------|-------------------|-------|-------|
---------------------|--------------------|-------------------|-------|-------|


-------|-------|-------|-------|-------|-------|-------||
-------|-------|-------|-------|-------|-------|-------||
-------|-------|-------|-------|-------|-------|-------||
-------|-------|-------|-------|-------|-------|-------||
-------|-------|-------|-------|-------|-------|-------||
-------|-------|-------|-------|-------|-------|-------||




Duration Legend
---------------
W - whole
H - half
Q - quarter
E - 8th
S - 16th
T - 32nd
X - 64th
. - note dotted
|-n-|  - n-tuplets



(The Dead Ranch Hands) #8

Bass for Nel Cimitero di Tucson (Six string bass)


     Q    E  E  Q    Q       Q    E  E  Q    Q       Q    E  E  Q    Q     
E||-----------------------|-----------------------|-----------------------|
B||-----------------------|-----------------------|--1----1--1--1----1----|
G||--2----2--2--2----2----|--2----2--2--2----2----|-----------------------|
D||-----------------------|-----------------------|-----------------------|
A||-----------------------|-----------------------|-----------------------|
E||-----------------------|-----------------------|-----------------------|


  Q    E  E  Q    Q       Q    E  E  Q    Q       Q    E  E  Q    Q     
-----------------------|-----------------------|-----------------------|
--1----1--1--1----1----|-----------------------|-----------------------|
-----------------------|-----------------------|-----------------------|
-----------------------|--3----3--3--3----3----|--3----3--3--3----3----|
-----------------------|-----------------------|-----------------------|
-----------------------|-----------------------|-----------------------|


  Q    E  E  Q    Q       Q    E  E  Q    Q       Q    E  E  Q    Q     
-----------------------|-----------------------|-----------------------|
-----------------------|-----------------------|-----------------------|
-----------------------|-----------------------|--2----2--2--2----2----|
--2----2--2--2----2----|--2----2--2--2----2----|-----------------------|
-----------------------|-----------------------|-----------------------|
-----------------------|-----------------------|-----------------------|


  Q    E  E  Q    Q       Q    E  E  Q    Q       Q    E  E  Q    Q     
-----------------------|-----------------------|-----------------------|
-----------------------|--1----1--1--1----1----|--1----1--1--1----1----|
--2----2--2--2----2----|-----------------------|-----------------------|
-----------------------|-----------------------|-----------------------|
-----------------------|-----------------------|-----------------------|
-----------------------|-----------------------|-----------------------|


  Q    E  E  Q    Q       Q    E  E  Q    Q       Q    E  E  Q    Q     
-----------------------|-----------------------|-----------------------|
-----------------------|-----------------------|-----------------------|
-----------------------|-----------------------|-----------------------|
--3----3--3--3----3----|--3----3--3--3----3----|--2----2--2--2----2----|
-----------------------|-----------------------|-----------------------|
-----------------------|-----------------------|-----------------------|


  Q    E  E  Q    Q       Q    E  E  Q    Q       Q    E  E  Q    Q     
-----------------------|-----------------------|-----------------------|
-----------------------|-----------------------|-----------------------|
-----------------------|--2----2--2--2----2----|--2----2--2--2----2----|
--2----2--2--2----2----|-----------------------|-----------------------|
-----------------------|-----------------------|-----------------------|
-----------------------|-----------------------|-----------------------|


  Q    E  E  Q    Q       Q    E  E  Q    Q       Q    E  E  Q    Q     
-----------------------|-----------------------|-----------------------|
--1----1--1--1----1----|--1----1--1--1----1----|-----------------------|
-----------------------|-----------------------|-----------------------|
-----------------------|-----------------------|--3----3--3--3----3----|
-----------------------|-----------------------|-----------------------|
-----------------------|-----------------------|-----------------------|


  Q    E  E  Q    Q       Q    E  E  Q    Q       Q    E  E  Q    Q     
-----------------------|-----------------------|-----------------------|
-----------------------|-----------------------|-----------------------|
-----------------------|-----------------------|-----------------------|
--3----3--3--3----3----|--2----2--2--2----2----|--2----2--2--3----5----|
-----------------------|-----------------------|-----------------------|
-----------------------|-----------------------|-----------------------|


  Q    E  E  Q    Q       Q    E  E  Q    Q       Q    E  E  Q    Q     
-----------------------|-----------------------|-----------------------|
-----------------------|-----------------------|-----------------------|
-----------------------|-----------------------|-----------------------|
-----------------------|-----------------------|--5----5--5--5----5----|
--3----3--3--3----3----|--3----3--3--3----3----|-----------------------|
-----------------------|-----------------------|-----------------------|


  Q    E  E  Q    Q       Q    E  E  Q    Q       Q    E  E  Q    Q     
-----------------------|-----------------------|-----------------------|
-----------------------|-----------------------|-----------------------|
-----------------------|--2----2--2--2----2----|--4----4--4--4----4----|
--5----5--5--5----5----|-----------------------|-----------------------|
-----------------------|-----------------------|-----------------------|
-----------------------|-----------------------|-----------------------|


  Q    E  E  Q    Q       Q    E  E  E  E  S S E     Q    E  E  Q    Q     
-----------------------|--------------------------|-----------------------|
-----------------------|--------------------------|-----------------------|
-----------------------|--------------------------|--2----2--2--2----2----|
--2----2--2--2----2----|--2----2--2--2--2--2-2-2--|-----------------------|
-----------------------|--------------------------|-----------------------|
-----------------------|--------------------------|-----------------------|


  Q    E  E  Q    Q       Q    E  E  Q    Q       Q    E  E  Q    Q     
-----------------------|-----------------------|-----------------------|
-----------------------|--1----1--1--1----1----|--1----1--1--1----1----|
--2----2--2--2----2----|-----------------------|-----------------------|
-----------------------|-----------------------|-----------------------|
-----------------------|-----------------------|-----------------------|
-----------------------|-----------------------|-----------------------|


  Q    E  E  Q    Q       Q    E  E  Q    Q       Q    E  E  Q    Q     
-----------------------|-----------------------|-----------------------|
-----------------------|-----------------------|-----------------------|
-----------------------|-----------------------|-----------------------|
--3----3--3--3----3----|--3----3--3--3----3----|--2----2--2--2----2----|
-----------------------|-----------------------|-----------------------|
-----------------------|-----------------------|-----------------------|


  Q    E  E  Q    Q       Q    E  E  Q    Q       Q    E  E  Q    Q     
-----------------------|-----------------------|-----------------------|
-----------------------|-----------------------|-----------------------|
-----------------------|-----------------------|-----------------------|
--2----2--2--3----5----|-----------------------|-----------------------|
-----------------------|--3----3--3--3----3----|--3----3--3--3----3----|
-----------------------|-----------------------|-----------------------|


  Q    E  E  Q    Q       Q    E  E  Q    Q       Q    E  E  Q    Q     
-----------------------|-----------------------|-----------------------|
-----------------------|-----------------------|-----------------------|
-----------------------|-----------------------|--2----2--2--2----2----|
--5----5--5--5----5----|--5----5--5--5----5----|-----------------------|
-----------------------|-----------------------|-----------------------|
-----------------------|-----------------------|-----------------------|


  Q    E  E  Q    Q       Q    E  E  E  E  S S E     H        H         
-----------------------|--------------------------|--------------------|
-----------------------|--------------------------|--------------------|
--4----4--4--4----4----|--------------------------|--------------------|
-----------------------|--2----2--2--2--2--2-2-2--|--2-----------------|
-----------------------|--------------------------|--------------------|
-----------------------|--------------------------|--------------------|


  Q    E  E  Q    Q       Q    E  E  Q    Q       Q    E  E  Q    Q     
-----------------------|-----------------------|-----------------------|
-----------------------|-----------------------|--1----1--1--1----1----|
--2----2--2--2----2----|--2----2--2--2----2----|-----------------------|
-----------------------|-----------------------|-----------------------|
-----------------------|-----------------------|-----------------------|
-----------------------|-----------------------|-----------------------|


  Q    E  E  Q    Q       Q    E  E  Q    Q       H        H         
-----------------------|-----------------------|--------------------|
--1----1--1--1----1----|-----------------------|--------------------|
-----------------------|-----------------------|--------------------|
-----------------------|--3----3--3--3----3----|--2-----------------|
-----------------------|-----------------------|--------------------|
-----------------------|-----------------------|--------------------|


  Q    E  E  Q    Q       Q    E  E  Q    Q       Q    E  E  Q    Q     
-----------------------|-----------------------|-----------------------|
-----------------------|-----------------------|--1----1--1--1----1----|
--2----2--2--2----2----|--2----2--2--2----2----|-----------------------|
-----------------------|-----------------------|-----------------------|
-----------------------|-----------------------|-----------------------|
-----------------------|-----------------------|-----------------------|


  Q    E  E  Q    Q       Q    E  E  Q    Q       Q    E  E  Q    Q     
-----------------------|-----------------------|-----------------------|
--1----1--1--1----1----|-----------------------|-----------------------|
-----------------------|-----------------------|-----------------------|
-----------------------|--3----3--3--3----3----|--3----3--3--3----3----|
-----------------------|-----------------------|-----------------------|
-----------------------|-----------------------|-----------------------|


  Q    E  E  Q    Q       Q    E  E  Q    Q       Q    H.            
-----------------------|-----------------------|--------------------|
-----------------------|-----------------------|--------------------|
--2----2--2--2----2----|--2----2--2--2----2----|--2-----------------|
-----------------------|-----------------------|--------------------|
-----------------------|-----------------------|--------------------|
-----------------------|-----------------------|--------------------|


---------------||
---------------||
---------------||
---------------||
---------------||
---------------||




Duration Legend
---------------
W - whole
H - half
Q - quarter
E - 8th
S - 16th
T - 32nd
X - 64th
. - note dotted
|-n-|  - n-tuplets

(Cat Stevens) #9

Just uploaded this at Ultimate-Guitar:

"Back Home Someday (A Man Alone)"
Theme from MASSACRE TIME / TEMPO DI MASSACRO
Music by Lallo Gori
Vocals by Sergio Endrigo

[Verse 1]
                          Em (Trumpet Fill)
You left to find a pot of gold. 

Em                         G          B7
A thousand miles you rode alone, all alone! 

        Em              C            G           B7
Oh, the long and lonely way will not lead you anywhere... 

       Em        Am        Em    B7 (Trumpet Fill)
You'll come back home some day; 

       Em        Am        Em    B7   Em  B7  Em (Trumpet Fill)
You'll come back home some day. 


[Verse 2]

N.C.                             Em    (Trumpet Fill)
The wind will steal your 'pot of gold' 

Em                              G            B7
And fill your eyes with burning sand, bitter sand! 

   Em                 C          G                  B7
No star will show the way and no one will hear your prayer... 

       Em        Am        Em    B7   (Trumpet Fill)
You'll come back home some day; 

       Em        Am        Em    B7   Em  B7 (Trumpet Fill)
You'll come back home some day.


[Bridge] 
(strum chords and let ring)
(with Harmony Melody 1)

    D         Em
You went away forever; 

    D         Em
You went away alone. 

    D                Em
But someone's always waiting 

   D          D         Em
For you... at home... today!


[Solo]
(Key change - up one step)


    Fm                Fm                 G#     C7
e|-----------------------------------------------------|
B|------------------------------------4---4---4-5------|
G|--------------3-------------------5---5---5----------|
D|--------3-5-6---5---3-------3-5-6--------------------|
A|------3-----------6-------3--------------------------|
E|--(1)------------------------------------------------|

[Repeat verse 2]

   Fm                 C#         G#                  C7
No star will show the way and no one will hear your prayer... 

       Fm        Bbm       Fm    C7
You'll come back home some day; 

       Fm        Bbm       Fm    G#   Fm G# Fm
You'll come back home some day.


[Bridge] 
(strum chords and let ring)
(with Harmonica Melody 2)

    D#        Fm
You went away forever; 

    D#        Fm
You went away alone. 

    D#               Fm
But someone's always waiting 

    D#         D#        Fm
For you... at home... today!

Fm - G# - Fm - G# (fade)




Trumpet Fill 1:

e|---0-2-3p2p0---2-0---------|
B|-0-----------3-----0---0---|
G|---------------------2-----|
D|---------------------------|
A|---------------------------|
E|---------------------------|

Harmonica Melody 1:
e|-------------------------------------------------------------------------------------------|
B|-------------------------------------------------------------------------------------------|
G|----------9-7-9---------------------------9-7-9----------------------9-7-9-----------------|
D|--7~----9----------7~-------9-----7~----9----------7------7--9-7~----------9-7-9-----------|
A|------7---------10-----7-10---7-------7---------10----9-10---------7-------------7----7----|
E|-----------------------------------------------------------------------------------10------|


Harmonica Melody 2:
e|------------------------------------------------------------------------------|
B|------------------------------------------------------------------------------|
G|-----------10-8-10----------------------------10-8-10-------------------------|
D|--8~----10------------8~-------10-----8~----8------------8--------8-10-8~-----|
A|------8------------11-----8-11----8-------8-----------11----10-11-------------|
E|------------------------------------------------------------------------------|

(Cat Stevens) #10
-----------------------------------------------------------------
THEME FROM 'BANDIDOS' - Egisto Macchi
-----------------------------------------------------------------
Tuning: EADGBe

Trumpet tabbed for guitar. Guitar fills tabbed separately.

Song begins and ends with upstroke of Cm barre chord over
finger-picking pattern.

[Verse]

    C#m   D#      C#m  (Fill 1)  C#m   D#       C#m
e|-----------------------------------------------------------|
B|---4---------------------------4---------------------------|
G|-5----5-3--------------------5----5-3----------------------|
D|-----------6p5---5-3-5~----------------6p5---3h5-3---3-5~--|
A|---------------6---------------------------6-------6-------|
E|-----------------------------------------------------------|

     G#     C#m      G            C#m   Bb
e|-3-4--6-4-3-----------------------------|
B|----------------------------------------|
G|------------5--7-5-4h5p4------4-5~------|
D|-------------------------5--5-----------|
A|----------------------------------------|
E|----------------------------------------|

[Chorus]

       D#       Bb        Fm       D#        D#       Bb
e|-----3------3-----------4--3---4-3-------3-6---------------|
B|---4----6-4---6-------6------6-----4---4-----4--6-4-3------|
G|-3--------------3---3---------------------------------3----|
D|-----------------------------------------------------------|
A|-----------------------------------------------------------|
E|-----------------------------------------------------------|

       Fm             D#   G7 (Fill 2)  D#     Bb7
e|-----4-6/8--4-----|-----------------|---5--8-6--|
B|---6----------6-3-|-4~--------------|-4---------|
G|-3----------------|-----------------|-----------|
D|------------------|-----------------|-----------|
A|------------------|-----------------|-----------|
E|------------------|-----------------|-----------|

[Guitar Fills]

   Fill 1      Fill 2
e|-----------|-----------|
B|-----------|-----------|
G|-----------|-----------|
D|-5p3---3h5-|-----------|
A|-----6-----|-6p5p3-----|
E|-----------|-------6-3-|

| /  slide up
| h  hammer-on
| p  pull-off
| ~  vibrato

(Cat Stevens) #11
"A Gringo Like Me"
Theme from GUNFIGHT AT RED SANDS
Music by Ennio Morricone
Sung by Peter Tevis

Riff in F#m (opens song and continues throughout verse 1-3)

e|-2-2-2--5-5-5--2-7-7\5--2-2-2--5-5-5--2-------|
B|-2-2-2--2-2-2--2-4-4\2--2-2-2--2-2-2--2-5-2-5-|
G|-2-2-2--2-2-2--2-4-4\2--2-2-2--2-2-2--2-2-2-2-|
D|----------------------------------------2-2-2-|
A|----------------------------------------------|
E|----------------------------------------------|

Riff in G#m (begins and continues throughout verse 4)

e|-3-3-3--6-6-6--3-8-8\6--3-3-3--6-6-6--3-------|
B|-3-3-3--3-3-3--3-5-5\3--3-3-3--3-3-3--3-6-3-6-|
G|-3-3-3--3-3-3--3-5-5\3--3-3-3--3-3-3--3-3-3-3-|
D|----------------------------------------3-3-3-|
A|----------------------------------------------|
E|----------------------------------------------|


(Fast strummers: use an A to transition between F#m, B, and E chords of the verse)

[Verse 1]

N.C.                   F#m  B  F#m
Keep your hand on your gun
          E        F#m  B  F#m
Don't you trust anyone
             A           F#m
There's just one kind of man
             D
That you can trust
         A
That's a dead man...
Bm   E           F#m
Or a gringo like me


[Verse 2]

                    F#m  B  F#m
Be the first one to fire
      E        F#m  B  F#m
Every man is a liar
             A           F#m
There's just one kind of man
              D
Who tells the truth
         A
That's a dead man...
Bm   E           F#m
Or a gringo like me


[Bridge]

           A          D          A
Don't be a fool for a smile or a kiss
        D            A
Or your bullet might miss
Bm        C#m D       A
Keep your eye on your goal
                 A
There's just one rule
         D             A
That can save you your life
       D            F#m
It's a hand on your knife
Bm      C#m   D       E
And the Devil in your soul


[Verse 3]

N.C.                   F#m  B  F#m
Keep your hand on your gun
          E        F#m  B  F#m
Don't you trust anyone
             A           F#m
There's just one kind of man
             D
That you can trust
         A
That's a dead man...
Bm   E           F#m
Or a gringo like me


(Riff 1)


[Verse 4]
(key change up half step; as before, faster strummers play Bb transitions between Gm, C, and F chords)

N.C.                   Gm  C  Gm
Keep your hand on your gun
          F        Gm  C  Gm
Don't you trust anyone
             Bb          Gm
There's just one kind of man
             D#
That you can trust
         Bb
That's a dead man...
Cm   F           Gm
Or a gringo like me
Cm   F           Gm
Or a gringo like me...
Cm   F           Gm
Or a gringo like me...
        Gm
...like me...



| /  slide up